Yö - Pettävällä jäällä

Täällä asiaa tabulatuureista. Tänne vaikka niitä tabulatuuritoiveita.

Valvojat: scepa, selmu

Mesp
Viestit: 9
Liittynyt: 09 Maalis 2008, 21:22
Paikkakunta: Jyväskylä

Yö - Pettävällä jäällä

Viesti Kirjoittaja Mesp » 01 Elo 2008, 16:03

Eli löytyiskö joltain kyseistä tabia? Ei meinaa löytyä mistään... Kiitos!
Mika

nigel tufnel
Viestit: 3
Liittynyt: 07 Joulu 2007, 20:10

Viesti Kirjoittaja nigel tufnel » 03 Elo 2008, 21:01

Intro:

Koodi: Valitse kaikki

|---7-9-|-10-9-10---|---------7-7-|-7-----------------|-------7-9----|
|-7-----|---------7-|-(7)-(7)-----|---10-10-8-8-7-7-8-|-----7--------|
|-------|-----------|-------------|-------------------|-9-9----------|
|-------|-----------|-------------|-------------------|--------------|
|-------|-----------|-------------|-------------------|--------------|
|-------|-----------|-------------|-------------------|--------------|

|-10-12-9----|-------12-12-|-12-10-10-9-9----9-10-|-9----|
|---------12-|-12----------|--------------12------|------|
|------------|-------------|----------------------|------|
|------------|-------------|----------------------|------|
|------------|-------------|----------------------|------|
|------------|-------------|----------------------|------|

Tahtipalkit voivat olla vähän perseellään, mutta kuuntelemallahan sen saa ajoitettua kohdalleen.

Sointuja ei tähän hätään löydy..

veikka10
Viestit: 1
Liittynyt: 28 Loka 2014, 15:03

Re: Yö - Pettävällä jäällä

Viesti Kirjoittaja veikka10 » 29 Loka 2014, 09:41

Löytyykö keneltäkään soolo-osuutta?

Vastaa Viestiin