Pantera - Cowboys from Hell

Harjoituksia eri soittotekniikoihin, -tyyleihin jne.

Valvojat: scepa, selmu

funTwo
Viestit: 39
Liittynyt: 11 Loka 2006, 15:24

Pantera - Cowboys from Hell

Viesti Kirjoittaja funTwo » 22 Kesä 2011, 12:52

HEAVY/METAL | pantera, cowboys, from, hell | Vaikeustaso: keskitaso
Pikkaustekniikkaa.

Koodi: Valitse kaikki

|------------------------------------------------|
|------------------------------------------------|
|------------------------------------------------|
|-------------------------------------------12---|
|-------------12----12----13----12----13-14------|
|-12-15-12-15----15----15----15----15------------|

|------------------------------------------------|
|------------------------------------------------|
|------------------------------------------------|
|-------------------------------------------12---|
|-------------12----12----13----12----13-14------|
|-12-15-12-15----15----15----15----15------------|

|------------------------------------------------|
|------------------------------------------------|
|------------------------------------------------|
|-------------------------------------------12---|
|-------------12----12----13----12----13-14------|
|-12-15-12-15----15----15----15----15------------|

|------------------------------------------------|
|------------------------------------------------|
|------------------------------------------------|
|------------------------------------------------|
|-------------12----12----13-12-10---------------|
|-12-15-12-15----15----15----------12------------|

|-------------------------------|
|-------------------------------|
|-------------------------------|
|---------2---2---------------0-|
|-2---2---0---0---1---0---1h2---|
|-0-3-0-3---3---3---3---3-------|

|-------------------------------|
|-------------------------------|
|-------------------------------|
|---------2---2---------------0-|
|-2---2---0---0---1---0---1h2---|
|-0-3-0-3---3---3---3---3-------|

|-----------------------------|
|-----------------------------|
|-----------------------------|
|---------2---2---------------|
|-2---2---0---0---1-0---2-----|
|-0-3-0-3---3---3-----3-0-----|

|-------------------------------|
|-------------------------------|
|-------------------------------|
|---------2---2---------------0-|
|-2---2---0---0---1---0---1h2---|
|-0-3-0-3---3---3---3---3-------|

|-------------------------------|
|-------------------------------|
|-------------------------------|
|---------2---2---------------0-|
|-2---2---0---0---1---0---1h2---|
|-0-3-0-3---3---3---3---3-------|

|-------------------------------|
|-------------------------------|
|-------------------------------|
|---------2---2---------------0-|
|-2---2---0---0---1---0---1h2---|
|-0-3-0-3---3---3---3---3-------|

|-----------------------------|
|-----------------------------|
|-----------------------------|
|---------2---2---------------|
|-2---2---0---0---1-0---2-----|
|-0-3-0-3---3---3-----3-0-----|

http://www.ultimate-guitar.com/tabs/p/pantera/cowboys_from_hell_ver4_tab.htm


VilTsu
Viestit: 0
Liittynyt: 04 Heinä 2011, 20:43
Paikkakunta: Posio

Re: Pantera - Cowboys from Hell

Viesti Kirjoittaja VilTsu » 04 Heinä 2011, 20:50

Tänks :)

Vastaa Viestiin