Dio - Holy Diver

Harjoituksia eri soittotekniikoihin, -tyyleihin jne.

Valvojat: scepa, selmu

Dio - Holy Diver

ViestiKirjoittaja Mr.Kaaos » 22 Kesä 2011, 12:49

HEAVY/METAL | Klassikko | Vaikeustaso: helpohko
oppii soittaan yhden metallin suurista klassikoista. (Pistin koko biisin)

Koodi: Valitse kaikki
e:------------------------|---------------------|---------------------|-----------------|
B:------------------------|---------------------|---------------------|-----------------|
G:------------------------|---------------------|---------------------|-----------------|
D:--5-------5-------5-7-8-|-5-------5--5-7-8--3-|-5-------5--5-7-8--3-|--5--3--5--------|
A:--3--3-3--3--3-3--3-5-6-|-3--3-3--3--3-5-6--1-|-3--3-3--3--3-5-6--1-|--3--1--3--------|
E:------------------------|---------------------|---------------------|-----------------|

e:------------------------|---------------------|---------------------|-----------------|
B:------------------------|---------------------|---------------------|-----------------|
G:------------------------|---------------------|---------------------|-----------------|
D:--5-------5-------5-7-8-|-5-------5--5-7-8--3-|-5-------5--5-7-8--3-|--5--3---------3-|
A:--3--3-3--3--3-3--3-5-6-|-3--3-3--3--3-5-6--1-|-3--3-3--3--3-5-6--1-|--3--1--6------1-|
E:------------------------|---------------------|---------------------|--------4--------|


         holy diver...
e:-------------------------------------|-----------------------------------|
B:-------------------------------------|-----------------------------------|
G:-------------------------------------|-----------------------------------|
D:--5----------------------------------|-----------------------------------|
A:--3--3-3--3--3-3--3--3-3--3--3-3--6--|---3--3-3--1--1-1------------------|
E:----------------------------------4--|-------------------4--4-4--4--4-4--|

         ride the tiger...
e:-------------------------------------|-----------------------------------|
B:-------------------------------------|-----------------------------------|
G:-------------------------------------|-----------------------------------|
D:--5----------------------------------|-----------------------------------|
A:--3--3-3--3--3-3--3--3-3--3--3-3--6--|---3--3-3--1--1-1--3--3-3--3--3-3--|
E:----------------------------------4--|-----------------------------------|

  gotta get away
e:------------4-4-4-4-4-4-4--|
B:------------4-4-4-4-4-4-4--|
G:------------5-5-5-5-5-5-5--|
D:------------6-6-6-6-6-6-6--|
A:------------6-6-6-6-6-6-6--|
E:------------4-4-4-4-4-4-4--|

  Holly diver
e:------------------------|---------------------|---------------------|-----------------|
B:------------------------|---------------------|---------------------|-----------------|
G:------------------------|---------------------|---------------------|-----------------|
D:--5-------5-------5-7-8-|-5-------5--5-7-8--3-|-5-------5--5-7-8--3-|--5--3--5--------|
A:--3--3-3--3--3-3--3-5-6-|-3--3-3--3--3-5-6--1-|-3--3-3--3--3-5-6--1-|--3--1--3--------|
E:------------------------|---------------------|---------------------|-----------------|


        shiny diamonds...
e:-------------------------------------|-----------------------------------|
B:-------------------------------------|-----------------------------------|
G:-------------------------------------|-----------------------------------|
D:--5----------------------------------|--------------------------------3--|
A:--3--3-3--3--3-3--3--3-3--3--3-3--6--|---3--3-3--1--1-1------------6--1--|
E:----------------------------------4--|-------------------4--4-4----4-----|

        race for the morning...
e:-------------------------------------|-----------------------------------|
B:-------------------------------------|-----------------------------------|
G:-------------------------------------|-----------------------------------|
D:--5----------------------------------|-----------------------------------|
A:--3--3-3--3--3-3--3--3-3--3--3-3--6--|---3--3-3--1--1-1--3--3-3--3--3-3--|
E:----------------------------------4--|-----------------------------------|

  gotta get away        get away
e:------------4-4-4-4-4-4-4--|-6-6-6-6-6-6-6-|
B:------------4-4-4-4-4-4-4--|-6-6-6-6-6-6-6-|
G:------------5-5-5-5-5-5-5--|-7-7-7-7-7-7-7-|
D:------------6-6-6-6-6-6-6--|-8-8-8-8-8-8-8-|
A:------------6-6-6-6-6-6-6--|-8-8-8-8-8-8-8-|
E:------------4-4-4-4-4-4-4--|-6-6-6-6-6-6-6-|

         Between the velvet lies             there´s a true that´s hard as steel
e:-------------------------------------|----------------------------------------------|
B:-------------------------------------|----------------------------------------------|
G:-------------------------------------|----------------------------------------------|
D:--5-5------3-3---------------------3-|-5-5------------3-3-------------------------3-|
A:--3-3------1-1---------------------1-|-3-3------------1-1-------------------------1-|
E:---------------------------4-4---4---|--------------------------------------3--4----|

         The vision necver dies              life´s never ending wheel
e:-------------------------------------|---------------------------------|
B:-------------------------------------|---------------------------------|
G:-------------------------------------|---------------------------------|
D:--5-5------3-3---------------------3-|-5-5---------3-3-----------------|
A:--3-3------1-1---------------------1-|-3-3---------1-1-------------6---|
E:---------------------------4-4---4---|-----------------------------4---|

        holy diver...
e:-------------------------------------|-----------------------------------|
B:-------------------------------------|-----------------------------------|
G:-------------------------------------|-----------------------------------|
D:--5----------------------------------|--------------------------------3--|
A:--3--3-3--3--3-3--3--3-3--3--3-3--6--|---3--3-3--1--1-1------------6--1--|
E:----------------------------------4--|-------------------4--4-4----4-----|

       Jump on the tiger...
e:-------------------------------------|-----------------------------------|
B:-------------------------------------|-----------------------------------|
G:-------------------------------------|-----------------------------------|
D:--5----------------------------------|-----------------------------------|
A:--3--3-3--3--3-3--3--3-3--3--3-3--6--|---3--3-3--1--1-1--6---------------|
E:----------------------------------4--|-------------------4......---------|

 Guitar Solo
e:--------------------------------------|---------------------------------------|--------------------------------------|
B:--------------------------------------|---------------------------------------|--------------------------------------|
G:--------------------------------------|---------------------------------------|--------------------------------------|
D:---3-5-----8-5----5--5----8-5----8-7--|---3-5-----8-5----3-5-----8-5----8-10--|---3-5-----8-5----5--5----4-5----8-7--|
A:---1-3-----6-3----3--3----6-3----6-5--|---1-3-----6-3----1-3-----6-3----6-8---|---1-3-----6-3----3--3----6-3----6-5--|
E:--------------------------------------|---------------------------------------|--------------------------------------|

e:--------------------------------------------------|--------------------------------------------------|
B:--------------------------------------------------|--------------------------------------------------|
G:--------------------------------------------------|--------------------------------------------------|
D:--------------------------3-------3-------3-------|-------------------------3-------3---------8-7----|
A:--6-------6-------6-------1--1-1--1--1-1--1--1-1--|--6-------6-------6------1--1-1--1--1-1----6-5----|
E:--4--4-4--4--4-4--4--4-4--------------------------|--4--4-4--4--4-4--4--4-4--------------------------|

e:---------------------------------------|
B:---------------------------------------|
G:---------------------------------------|
D:---------------------------8-7---5-3---|
A:--6-------6-------6--------6-5---3-1---|
E:--4--4-4--4--4-4--4--4-4---------------|

        holy diver...
e:-------------------------------------|-----------------------------------|
B:-------------------------------------|-----------------------------------|
G:-------------------------------------|-----------------------------------|
D:--5----------------------------------|--------------------------------3--|

A:--3--3-3--3--3-3--3--3-3--3--3-3--6--|---3--3-3--1--1-1------------6--1--|
E:----------------------------------4--|-------------------4--4-4----4-----|

       ride the tiger...
e:-------------------------------------|-----------------------------------|
B:-------------------------------------|-----------------------------------|
G:-------------------------------------|-----------------------------------|
D:--5----------------------------------|-----------------------------------|
A:--3--3-3--3--3-3--3--3-3--3--3-3--6--|---3--3-3--1--1-1--3--3-3--3--3-3--|
E:----------------------------------4--|-----------------------------------|


  gotta get away        get away
e:------------4-4-4-4-4-4-4--|-6-6-6-6-6-6-6-|
B:------------4-4-4-4-4-4-4--|-6-6-6-6-6-6-6-|
G:------------5-5-5-5-5-5-5--|-7-7-7-7-7-7-7-|
D:------------6-6-6-6-6-6-6--|-8-8-8-8-8-8-8-|
A:------------6-6-6-6-6-6-6--|-8-8-8-8-8-8-8-|
E:------------4-4-4-4-4-4-4--|-6-6-6-6-6-6-6-|

  gotta get away        get away
e:------------4-4-4-4-4-4-4--|-6-6-6-6------|
B:------------4-4-4-4-4-4-4--|-6-6-6-6------|
G:------------5-5-5-5-5-5-5--|-7-7-7-7------|
D:------------6-6-6-6-6-6-6--|-8-8-8-8----5-|
A:------------6-6-6-6-6-6-6--|-8-8-8-8--8-3-|
E:------------4-4-4-4-4-4-4--|-6-6-6-6--6---|



e:------------------------|---------------------|
B:------------------------|---------------------|
G:------------------------|---------------------|
D:--5-------5-------5-7-8-|-5-------5--5-7-8--3-|
A:--3--3-3--3--3-3--3-5-6-|-3--3-3--3--3-5-6--1-|
E:------------------------|---------------------|

e:------------------------|---------------------|
B:------------------------|---------------------|
G:------------------------|---------------------|
D:--5-------5-------5-7-8-|-5-------5--5-7-8--3-|
A:--3--3-3--3--3-3--3-5-6-|-3--3-3--3--3-5-6--1-|
E:------------------------|---------------------|

Mr.Kaaos
 
Viestit: 38
Liittynyt: 02 Tammi 2009, 15:23

Paluu Harjoitukset

Paikallaolijat

Käyttäjiä lukemassa tätä aluetta: Ei rekisteröityneitä käyttäjiä ja 2 vierailijaa