Duuriasteikon moodien kolmisointujen swiippejä!

Harjoituksia eri soittotekniikoihin, -tyyleihin jne.

Valvojat: scepa, selmu

Duuriasteikon moodien kolmisointujen swiippejä!

ViestiKirjoittaja Tonski » 22 Kesä 2011, 12:34

TEKNIIKKA | moodit, lakaisu, talonmies, kolmisointu | Vaikeustaso: vaikeahko
Duuriasteikon moodien päälle muodostuvien kolmisointujen rakenne(duuri vai molli?), mille asteelle tulee mikin kolmisointu ja samalla tulee hirmusta sweepii niin on vähän ihkumpi! D-mollista menee, trioleina soitetaan. Guitar Pro file harjotuksesta tulee myöhemmin.

Koodi: Valitse kaikki
e|-----------------1--5--s6--3----------------------------------5--8-----s10--6-------------------|
B|-------------3------------------5--------------------------6---------------------8--------------|
G|---------2--------------------------3-------------------5----------------------------7----------|
D|-----3----------------------------------5-----------7-----------------------------------8-------|
A|--5-----------------------------------------7--s8------------------------------------------10---|
E|--Dm-----------------Emb5----------------------F-----------------------Gm-----------------------|

e|----------------------8--12--s13--10------------------------------|
B|----------------10------------------------11----------------------|
G|------------9----------------------------------10-----------------|
D|-------10-------------------------------------------12------------|
A|-s12------------------------------------------------------13------|
E|-Am--------------------------B/Bb---------------------------------|


e|------------------------12--15--s17--13---------------13--------|
B|------------------13---------------------15-------15------------|
G|------------12--------------------------------14----------------|
D|-------14-------------------------------------------------------|
A|--s15-----------------------------------------------------------|
E|--C-----------------------------Dm------------------------------|

s = slide
Tonski
 
Viestit: 256
Liittynyt: 06 Tammi 2009, 17:09

Paluu Harjoitukset

Paikallaolijat

Käyttäjiä lukemassa tätä aluetta: Ei rekisteröityneitä käyttäjiä ja 1 vierailijaa

cron