Rush - Xanadu

Harjoituksia eri soittotekniikoihin, -tyyleihin jne.

Valvojat: scepa, selmu

Rush - Xanadu

ViestiKirjoittaja XVI » 22 Kesä 2011, 12:30

ROCK | sorminäppäryys, string skipping | Vaikeustaso: keskitaso
Harjoitus kehittää string skippingiä ja harjoittaa sorminäppäryyttä.

Koodi: Valitse kaikki
Intro-riffi

2:04
e|--12-------11---------12------11--------
B|-----10-12----9--10------10-12---9--10--
G|9-------------------9-------------------
D|----------------------------------------
A|----------------------------------------
E|----------------------------------------...

2:54
e|--0-|---------------------------------
B|--0-|---------------------------------
G|--4-|---------------------------------
D|--2-|-0-------4-2-0---0---------------
A|--2-|---4-2-0-------4---4-2-0-4-2-0---
E|0---|---------------------------------... Tämä riffi toistetaan 4 kertaa...
  x3

...jonka jälkeen sama melodia laskee paksulle E-kielelle saakka.
e|----------------------------------------------------------------0
B|----------------------------------------------------------------0
G|----------------------------------------------------------------4
D|0-------4-2-0---2-0-----0---------------------------------------2
A|--4-2-0-------4-----4-2---4-2-0-4-2-0---2-0-----0-------------2-2
E|--------------------------------------4-----4-2---4-2-0-4-2-0---0


Kipaleen voit kuunnella täältä:
- http://www.youtube.com/watch?v=qH_PPzcpeBw.

Koko biisin voit opetella vaikka täältä:
- http://www.ultimate-guitar.com/tabs/r/rush/xanadu_tab.htm

Antoisia soittohetkiä! Kappale on erittäin palkitseva jos sen oppii.

XVI
 
Viestit: 2
Liittynyt: 26 Kesä 2008, 17:57
Paikkakunta: Espoo

Paluu Harjoitukset

Paikallaolijat

Käyttäjiä lukemassa tätä aluetta: Ei rekisteröityneitä käyttäjiä ja 1 vierailijaa