Randy Rhoads soloing

Harjoituksia eri soittotekniikoihin, -tyyleihin jne.

Valvojat: scepa, selmu

Randy Rhoads soloing

ViestiKirjoittaja Vieras » 22 Kesä 2011, 12:27

HEAVY/METAL | tapping, tilutus | Vaikeustaso: vaihteleva
Randyn sooloja ja lickejä.

Koodi: Valitse kaikki
Crazy Train soolo:

e----------------------------------------------------------------|
B---14p7h10po7h10-14p7-14p7h10p7h10--14p7--14p7h10p7h10--14p7----|
G----------------------------------------------------------------|
D----------------------------------------------------------------|
A----------------------------------------------------------------|
E----------------------------------------------------------------|

e----------------------------------------------------------------|
B-14p7h10p7h10--15p7--15p7h10p7h10--15p7--15p7h10p7h10--15p7-----|
G----------------------------------------------------------------|
D----------------------------------------------------------------|
A----------------------------------------------------------------|
E----------------------------------------------------------------|

e---------------------------(w/bar-----------------)-------------|
B-15p7h10p7h10--15p10p7-----9h12p9--7h10p7--9h10p9---------------|
G---------------------------------------------------9s7-9bu(11)--|
D----------------------------------------------------------------|
A----------------------------------------------------------------|
E----------------------------------------------------------------|

e------------------17-16-14------------14-16-17-17bu(19)-14-17p14-|
B--10------------x-----------17bu(19)-----------------------------|
G-----9bu(11)--x--------------------------------------------------|
D-----------------------------------------------------------------|
A-----------------------------------------------------------------|
E-----------------------------------------------------------------|

e-----14---------------------------------------------------------|
B--17----17p15p14--15p14----14------------------15--15-----------|
G------------------------16----16p14--16bu(18)----------14-14h16-|
D----------------------------------------------------------------|
A----------------------------------------------------------------|
E----------------------------------------------------------------|

e--------14h17p14-----h17p14h18p15h18p15h18p16h19s21p17-21h18p21-|
B-14h17----------------------------------------------------------|
G----------------------------------------------------------------|
D----------------------------------------------------------------|
A----------------------------------------------------------------|
E----------------------------------------------------------------|

e-----19p17s16--xh19p16h19p16h19p16h19p16h19p16h19p16--14h15p14--|
B----------------------------------------------------------------|
G----------------------------------------------------------------|
D----------------------------------------------------------------|
A----------------------------------------------------------------|
E----------------------------------------------------------------|

e--------------17----------17------------------------------------|
B--17-17bu(19)----17bu(19)----17bu(19)-15-14------14----------14-|
G---------------------------------------------16-----16p14h16----|
D----------------------------------------------------------------|
A----------------------------------------------------------------|
E----------------------------------------------------------------|

e-----------------------------------------------------------------|
B-----------------------------------------------------------~~~~~-|
G-----------14----------14------------13-14-13-14-13h14p13---16---|
D--16p14h16----16p14h16----16p14h16-------------------------------|
A-----------------------------------------------------------------|
E-----------------------------------------------------------------|

e-----------------------------------------------------------------|
B-~~~~~~-------------------------------------------------14h16h17-|
G-----------------------------------------------13h14h16----------|
D----------------------------11h13h14-13h14h16--------------------|
A------------------11h12h14---------------------------------------|
E---------11h12h14------------------------------------------------|

e--14-------19bu(21)--19bu(21)bd(19)~~~~~~------------------------|
B-----17s19-------------------------------------------------------|
G-----------------------------------------------------------------|
D-----------------------------------------------------------------|
A-----------------------------------------------------------------|
E-----------------------------------------------------------------|

Soolon alussa tapataan oikealla kädellä korkein sävel.

Mr. Crowley:

Interlude

|--1--------1p0-----|-----5--3----|-------------------|---------------|
|:-3----3-------3p1-|-----6--5--5-|-------------------|----8--6-------|
|--2--2---2---------|-3-----------|-5----5h7-9p7------|----------7----|
|--0----------------|-3-----------|-5--5---------10p8-|-7-----------7-|
|:------------------|-------------|-------------------|---------------|
|-------------------|-------------|-------------------|---------------|
                                            [--- 1 ---][--- 2 ---]
|-----------------|------------|------------|---------|-------0--|
|-3---------------|----6p5h6-5-|-2--3--5--6-|-5--3--2~|-5--3--2-:|
|-3---3h5-7-5-3-2-|-0--------0-|------------|---------|-------2--|
|-3-3-------------|------------|------------|---------|-------2--|
|-----------------|------------|------------|---------|-------0-:|
|-----------------|------------|------------|---------|----------|

Koko biisit voit opetella osoitteesta

http://www.ultimate-guitar.com/tabs/o/ozzy_osbourne/crazy_train_ver2_tab.htm
http://www.ultimate-guitar.com/tabs/o/ozzy_osbourne/mr_crowley_tab.htm

Vieras
 

Paluu Harjoitukset

Paikallaolijat

Käyttäjiä lukemassa tätä aluetta: Ei rekisteröityneitä käyttäjiä ja 3 vierailijaa

cron