Tekniikkaharjoituksia tiluttajille

Harjoituksia eri soittotekniikoihin, -tyyleihin jne.

Valvojat: scepa, selmu

Tekniikkaharjoituksia tiluttajille

ViestiKirjoittaja zici » 22 Kesä 2011, 11:41

TEKNIIKKA | tapping, economy picking, sweep | Vaikeustaso: vaikeahko
Vaikeahkoja tekniikkaharjoituksia rock- ja heavymusiikin suurilta.

Koodi: Valitse kaikki
Pull of ja Hammer on

Led Zeppelin: The Lemon Song
|----15p12------15p12----15p12------15p12-|
|-15-------15---------15-------15---------|
|-----------------------------------------|
|-----------------------------------------|
|-----------------------------------------|
|-----------------------------------------|

Iron Maiden: The trooper
|--------------5h7p5h7p5h7----------------5h7p5h7p5/7--8p7h8p7--|
|--5h7p5h7p5-----------------5h7p5h7p6h8------------------------|
|---------------------------------------------------------------|
|---------------------------------------------------------------|
|---------------------------------------------------------------|
|---------------------------------------------------------------|



Sweep

Metallica: Leper Messiah
e|--19p15------15-19p15------15---20p17-------17-20p17-------17-22p19-------|
B|-------17--17--------17--17-----------18--18---------18--18---------20--20|
G|---------16------------16---------------17-------------17-------------19--|
D|--------------------------------------------------------------------------|
A|--------------------------------------------------------------------------|
E|--------------------------------------------------------------------------|

e|-19-22p19------19--19p15------15-19p15------15----22-20-19-17--21-19-17---|
B|---------20--20---------17--17--------17--17----------------------------20|
G|-----------19-------------16------------16--------------------------------|
D|--------------------------------------------------------------------------|
A|--------------------------------------------------------------------------|
E|--------------------------------------------------------------------------|



Economy picking

Led Zeppelin: Stairway to heaven
|----5---------------------|----8-8-8b--8p5------8-10p8--------------|
|------8-5-----------------|-8b-------------8/10--------10-8----8h10-|
|-7b-------7-5---7-5-------|---------------------------------10------|
|--------------7-----7-5---|-----------------------------------------|
|------------------------8-|-----------------------------------------|
|--------------------------|-----------------------------------------|

|------5-----------------------------------|
|----5---8p5-------------------------------|
|-7b---------7-5---7-5-----------5---5-5p0-|
|----------------7-----7-5---5-7---7-------|
|--------------------------7---------------|
|------------------------------------------|

|-5--------------------------|
|---8-5----------------------|
|-------7-5---7-5------------|
|-----------7-----7-5-7-5----|
|-------------------------8v-|
|----------------------------|


Led zeppelin: The song remains the same
e------------------------------------------------------------------------
b------------------------------------------------------------------------
g-----------------------------------------------------7-9-7---7----------
d------------------------7-9-7---9-7---7--7-7-----7-9-------9------------
a-3^4--0--3^4--5-7p5-7/9-------9-----9-----------------------------------
E------------------------------------------------------------------------

e-------------7----------------------------------------10----------------
b---------------10-7-----------------------------------------------------
g----7--9^11---------9-7---9-7---7-9-7---7-7----7-9^11----(11)^9--7------
d--9---------------------9-----9-------9-----9---------------------------
a------------------------------------------------------------------------
E------------------------------------------------------------------------

e------------------------------------7------------------------------------
b--7^8-7-------------------------------10-7-------------------------------
g--------7------7-9-7---7----7-9^11---------9-7---9-7---7-----------------
d-----------7-9-------9----9--------------------9-----9-------------------
a-------------------------------------------------------------------------
E-------------------------------------------------------------------------



Tapping

Metallica: Phantom lord
-19p15p12-19p15p12-19p15p12-19p15p12-|
-------------------------------------|
-------------------------------------|
-------------------------------------|
-------------------------------------|
-------------------------------------|

-20p15p12-20p15p12-20p15p12-20p15p12-|
-------------------------------------|
-------------------------------------|
-------------------------------------|
-------------------------------------|
-------------------------------------|

-22p15p12-22p15p12-22p15p12-22p15p12-|
-------------------------------------|
-------------------------------------|
-------------------------------------|
-------------------------------------|
-------------------------------------|


Joe Satriani: Day at the beach
e:||----------------------------------------------------------|
B:||-*--------14--------------------------------------14------|
G:||-------6--14-----6--16-----6--14-----6--16-----6--14------|
D:||-*-----7---------7--16-----7--14-----7--16-----7----------|
A:||----------------------------------------------------------|
E:||----5---------5---------5---------5---------5-------------|



Sitte lopuksi kappaleita joita kannattaa opetlla, mutta en laitta nut tähä
koska tarkoitushan ei ole kopioida koko ultimateguitar:ta ykköskitaraan.

Pull of hammer on:
Iron maiden - number of beast
Van Halen - Jump
Led zeppelin - Heartbreaker

Sweep
Lähes kaikki Bodomit?
Megadeth
Yngwie Malmsteen

Tapping
Van Halen - Eruption

zici
 
Viestit: 1369
Liittynyt: 03 Huhti 2006, 07:18
Paikkakunta: jäke

Paluu Harjoitukset

Paikallaolijat

Käyttäjiä lukemassa tätä aluetta: Ei rekisteröityneitä käyttäjiä ja 1 vierailijaa

cron