Pretty Woman

Harjoituksia eri soittotekniikoihin, -tyyleihin jne.

Valvojat: scepa, selmu

Pretty Woman

ViestiKirjoittaja Yama » 21 Kesä 2011, 22:59

POP | aloittelijat, kitaraklassikot | Vaikeustaso: helppo
Elokuvastakin tuttu helppo riffi aloittelijoille.

Koodi: Valitse kaikki
------------------------
------------------------
------------------------   2 kertaa
------------------0-----
--------------2---------
--0---0---4-------------


--------------------------------
--------------------------------
--------------------------------
----------------0----4---2---0--
-------------2------------------    ja tämä sittem muutaman kerran :)
--0---0---4---------------------



Kappaleen lopun voi rämpytellä täältä löytyvillä soinnuilla.
Yama
 
Viestit: 48
Liittynyt: 05 Syys 2006, 21:04

Paluu Harjoitukset

Paikallaolijat

Käyttäjiä lukemassa tätä aluetta: Ei rekisteröityneitä käyttäjiä ja 1 vierailijaa